Home Tablatures Tablatures Seven Nation Army

Tablatures Seven Nation Army

12 avril 2014

Nous ouvrons cette nouvelle rubrique destinée aux guitaristes débutants par une tablature de Seven Nation Army des Withe Stripes. Un morceau à la fois simples et plaisant à jouer. Le seul regret que l’on puisse avoir c’est que certains groupes de supporteurs du Football reprennent en choeur l’air principal de cette chanson. Ahhh c’est footeux…(dire que j’en suis un 😉 ). Have Fun

Tablatures Seven Nation Army des Withe Stripes

INTRO x4

----------------------------------------------------------------------
----------------------------------------------------------------------
----------------------------------------------------------------------
----------------------------------------------------------------------
--------------7-7---10---7--------------------------------------------
----------------------------10---8---7--------------------------------

x8

----------------------------------------------------------------------
----------------------------------------------------------------------
----9--9--12--9--7--5--4---9--9--12--9--7--5--7--5--4--2--------------
----9--9--12--9--7--5--4---9--9--12--9--7--5--7--5--4--2--------------
----------------------------------------------------------------------
----------------------------------------------------------------------

CHORUS x2

Intro:

----------------------------------------------------------------------
----------------------------------------------------------------------
----------------------------------------------------------------------
----------------------------------------------------------------------
--------------7-7---10---7--------------------------------------------
----------------------------10---8---7--------------------------------

INTRO x4

----------------------------------------------------------------------
----------------------------------------------------------------------
----------------------------------------------------------------------
----------------------------------------------------------------------
--------------7-7---10---7--------------------------------------------
----------------------------10---8---7--------------------------------

x8

Chorus
----------------------------------------------------------------------
----------------------------------------------------------------------
----9--9--12--9--7--5--4---9--9--12--9--7--5--7--5--4--2--------------
----9--9--12--9--7--5--4---9--9--12--9--7--5--7--5--4--2--------------
----------------------------------------------------------------------
----------------------------------------------------------------------

Chorus x2

Solo:

----------------------------------------------------------------------
----------------------------------------------------------------------
----------12-11---------12-14-12-12-14-12-11--------------------------
---14------------14-14------------------------------------------------
----------------------------------------------------------------------
----------------------------------------------------------------------
x2

--12--12--15--12--12--12--15--14----12-12-15-17-15-15-17-15-14
-------------------------------------------------------------------------------
-------------------------------------------------------------------------------
-------------------------------------------------------------------------------
-------------------------------------------------------------------------------
-------------------------------------------------------------------------------

---12--12--15--12--12--17--14---12--12--14--12-12-12-14-----------------------
---------------------------------------------------------13--12---------------
------------------------------------------------------------------------------
------------------------------------------------------------------------------
------------------------------------------------------------------------------
------------------------------------------------------------------------------

Paroles de Seven Nation Army

I’m gonna fight them off.
A seven nation army couldn’t hold me back.
They’re gonna rip it off.
Takin’ their time right behind my back.
And I’m talkin’ to myself at night, because I can’t forget.
Back and forth through my mind behind a cigarette

And a message come from my eyes, says leave it alone.

Dont wanna hear about it.
Every single ones got a story to tell.
Everyone knows about it.
From the Queen of England to the hounds of hell.
And if I catch you comin’ back my way, I’m gonna serve it to you.
And that ain’t what you want to hear, but that’s what I’ll do.

And a feeling comin’ from my bones, says find a home.

I’m goin’ to Witchita.
Far from this opera forever more.
I’m gonna work the straw.
Make the sweat drip out of every pore.
And I’m bleedin’ and I’m bleedin’ and I’m bleedin’ right before my lord.
All the words are gonna bleed from me, and I will think no more.

And the stains comin’ from my blood, tell me go back home

Traduction:

Je m’en vais les combattre
Une armée de sept nations ne pourrait m’arrêter
Ils vont m’arnaquer
Prenant leur temps derrière mon dos
Et je me parle à moi même la nuit
Parce que je ne peux oublier
Les pensées s’entrelaçant dans mon esprit
Derrière une cigarette

Et le message provenant de mes yeux me dit d’abandonner…

Vous ne voulez pas en entendre parler
Chacun a une histoire à raconter
Tout le monde le sait
De la reine d’Angleterre aux chiens de l’enfer
Et si je vous attrape sur mon chemin
Je vais vous le servir
Et ce n’est pas ce que vous voulez entendre
Mais c’est ce que je ferai

Et la sensation émanant de mes os me dit de trouver un logis…

Je m’en vais pour Wichita
Loin de cet opéra pour toujours
Je vais travailler la paille
Faire suinter chacun de mes pores
Et je saigne, et je saigne, et je saigne
Droit devant le seigneur
Tous les mots vont saigner de moi
Et je ne penserai plus

Qui sont les White Stripes?

The White Stripes est un duo de rock américain, formé en 1997 à Detroit, Michigan. Le groupe Jack White (auteur-compositeur, chant, guitare, basse et claviers) et Meg White (batterie et chant occasionnel). C’est deux là étaient mariés de 1996 à 2000. Après avoir sorti plusieurs singles et trois albums, les White Stripes accèdent à la notoriété en 2002. Ce fut la renaissance du son rock sorti du garage. Quand une fille est dans un groupe de rock cela par souvent en cacahuète! Enfin c’est pas moi qui le dis mais Jean Louis Aubert et Louis Bertignac!

Leurs albums à succès et salués par la critique globules blancs et Elephant ont attiré leur attention d’une grande variété de médias aux États-Unis et au Royaume-Uni, avec le single « Seven Nation Army » et sa ligne de basse désormais emblématique. Ce morceau est devenu est énorme succès massacré d’ailleurs par tous les supporteurs de Ligue 1…

Le groupe a enregistré plusieurs albums dont Get Behind Me Satan en 2005 et Icky Thump en 2007, et dissous en 2011 après une longue interruption de scène et de Studio.

Discographie de The White Stripes

Vous aimerez aussi: