Home Tablatures Tablature – The Sounds of Silence – Simon et Garfunkel

Tablature – The Sounds of Silence – Simon et Garfunkel

18 juin 2015

La tablature de The Sounds of Silence de Simon et Garfunkel est une des plus convoitées! Pour jouer cette superbe balade correctement, vous devez mettre un CAPO sur la case 6 de votre guitare.
Toute la chanson suit le même schéma d’accord. Vous pouvez choisir de jouer en picking ou de gratter les accords.
L’accordage est Standard ( EADGBE ) .

Tablature de Simon et Garfunkel Sound of Silence

Comment jouer The Sounds of Silence de Simon et Garfunkel à la guitare?

CAPO sur 6 
 Am                Am                G                 G 
|---0---0---0---0-|---0---0---0---0-|-----------------|-----------------|
|-----0-------0---|-----0-------0---|---3---3---3---3-|---3---3---3---3-|
|-2-------2-------|-2-------2-------|-0---2---4---2---|-0---2---4---2---|
|-----------------|-----------------|-----------------|-----------------|
|-----------------|-----------------|-----------------|-----------------|
|-----------------|-----------------|-----------------|-----------------|
                          Hello darkness..              I've come to..

  Am                Am                F       C         C  
|---0---0---0---0-|---0---0---0---0-|---1---1---0---0-|-1-0---0---0---0-|
|-----0---1---0---|-----0---1---0---|-----1-------1---|-----1-------1---|
|-2---------------|-2---------------|-2-------0-------|---------0-------|
|-----------------|-----------------|-----------------|-----------------|
|-----------------|-----------------|-----------------|-----------------|
|-----------------|-----------------|-----------------|-----------------|
 ..again.          Because a vision..  ..ly  creeping..
 
  F       C         C       F         F                 F       C 
|---1---1---0---0-|-1-0---0---1---1-|---1---1---1---1-|---1---1---------|
|-----1-------1---|-----1-------1---|-----1-------1---|-----1-----1---1-|
|-2-------0-------|---------2-------|-3-------2-------|-3-----------0---|
|-----------------|-----------------|-----------------|---------2-------|
|-----------------|-----------------|-----------------|-----------------|
|-----------------|-----------------|-----------------|-----------------|
 ..was sleeping..  And the vision    that was planted   in my  brain

  C                 Am                G                 Am 
|-----------------|-----------------|-----------------|---0---0---0---0-|
|---1---1---1---1-|---1---1---1---1-|---3---3---3---3-|-----0---1---0---|
|-----0-------0---|-----2-------2---|-0---2---4---2---|-2---------------|
|-3-------2-------|-2-------2-------|-----------------|-----------------|
|-----------------|-----------------|-----------------|-----------------|
|-----------------|-----------------|-----------------|-----------------|
    ..still remains..         ..the sound..        ..of silence.   

Paroles de The Sounds of Silence

Hello darkness, my old friend
I’ve come to talk with you again
Because a vision softly creeping
Left its seeds while I was sleeping
And the vision that was planted in my brain
Still remains
Within the sound of silence

In restless dreams I walked alone
Narrow streets of cobblestone
‘Neath the halo of a street lamp
I turned my collar to the cold and damp
When my eyes were stabbed by the flash of a neon light
That split the night
And touched the sound of silence

And in the naked light I saw
Ten thousand people, maybe more
People talking without speaking
People hearing without listening
People writing songs that voices never share
And no one dared
Disturb the sound of silence

« Fools », said I, « You do not know
Silence like a cancer grows
Hear my words that I might teach you
Take my arms that I might reach you »
But my words, like silent raindrops fell
And echoed
In the wells of silence

And the people bowed and prayed
To the neon god they made
And the sign flashed out its warning
In the words that it was forming
And the sign said, « The words of the prophets are written on the subway walls
And tenement halls »
And whispered in the sounds of silence

Vous aimerez aussi: