Home La boîte à outils Les Accords guitare G / Sol

Les Accords guitare G / Sol

30 mars 2015

Comment jouer les accords de Sol ou Accord G à la guitare?

accord de Sol G guitare

Comment sont notés les accords de Sol ou G sur une tablature

Accord G majeur / Sol majeur

Voici quatre possibilités de jouer un accord G majeur / Accord Sol Majeur à la guitare:

e|---------3---------3---------3--------10-------------------|
B|---------0---------3---------3--------12-------------------|
G|---------0---------0---------4--------12-------------------|
D|---------0---------0---------5--------12-------------------|
A|---------2---------2---------5--------10-------------------|
E|---------3---------3---------3---------X-------------------|

Accord G mineur / Sol mineur

Voici deux possibilités de jouer un accord Gm / Accord Sol Mineur à la guitare:

e|---------3--------10---------------------------------------|
B|---------3--------10---------------------------------------|
G|---------3--------11---------------------------------------|
D|---------5--------12---------------------------------------|
A|---------5--------12---------------------------------------|
E|---------3--------10---------------------------------------|

Accord G5 / Accord cinquième de Sol

Voici deux possibilités de jouer un accord G5 / Accord cinquième de Sol à la guitare:

e|---------X---------X---------------------------------------|
B|---------X---------X---------------------------------------|
G|---------X--------12---------------------------------------|
D|---------5--------12---------------------------------------|
A|---------5--------10---------------------------------------|
E|---------3---------X---------------------------------------|

Accord G7 / Accord septième de Sol

Voici quatre possibilités de jouer un accord G7 / Accord majeur septième de Sol à la guitare:

e|---------1---------3---------3--------10-------------------|
B|---------0---------3---------6--------12-------------------|
G|---------0---------4---------4--------10-------------------|
D|---------0---------3---------3--------12-------------------|
A|---------2---------5---------5--------10-------------------|
E|---------3---------3---------3---------X-------------------|

Accord Gm7 / Accord mineur septième de Sol

Voici trois possibilités de jouer un accord Gm7 / Accord mineur septième de Sol à la guitare:

e|---------3---------6---------3-----------------------------|
B|---------3---------3---------6-----------------------------|
G|---------3---------3---------3-----------------------------|
D|---------3---------3---------3-----------------------------|
A|---------5---------5---------5-----------------------------|
E|---------3---------3---------3-----------------------------|

Retrouvez tous les accords de guitare

Accord A / LaAccord B / SIAccord C / DOAccord D / RéAccord E / MiAccord F / FaAccord G / Sol

Vous aimerez aussi: