Home La boîte à outils Les Accords guitare F / Fa

Les Accords guitare F / Fa

30 mars 2015

Comment jouer les accords de Fa ou Accord F à la guitare?

fa accord guitare

Comment sont notés les accords de Fa ou F sur une tablature

Accord F majeur / Fa majeur

Voici trois possibilités de jouer un accord E majeur / Accord Mi Majeur à la guitare:

e|---------1---------1---------8-----------------------------|
B|---------1---------1--------10-----------------------------|
G|---------2---------2--------10-----------------------------|
D|---------3---------3--------10-----------------------------|
A|---------3---------2---------8-----------------------------|
E|---------1---------1---------X-----------------------------|

Accord F mineur / Fa mineur

Voici deux possibilités de jouer un accord Em / Accord Mi Mineur à la guitare:

e|---------1---------8---------------------------------------|
B|---------1---------9---------------------------------------|
G|---------1---------10--------------------------------------|
D|---------3---------10--------------------------------------|
A|---------3---------8---------------------------------------|
E|---------1---------X---------------------------------------|

Accord F5 / Accord cinquième de Fa

Voici deux possibilités de jouer un accord F5 / Accord cinquième de Fa à la guitare:

e|---------X---------X---------------------------------------|
B|---------X---------X---------------------------------------|
G|---------X--------10---------------------------------------|
D|---------3--------10---------------------------------------|
A|---------3---------8---------------------------------------|
E|---------1---------X---------------------------------------|

Accord F7 / Accord septième de Fa

Voici trois possibilités de jouer un accord F7 / Accord majeur septième de Fa à la guitare:

e|---------1---------0---------1-----------------------------|
B|---------1---------1---------4-----------------------------|
G|---------2---------2---------2-----------------------------|
D|---------1---------1---------1-----------------------------|
A|---------0---------3---------3-----------------------------|
E|---------1---------1---------1-----------------------------|

Accord Fm7 / Accord mineur septième de Fa

Voici trois possibilités de jouer un accord Em7 / Accord mineur septième de Mi à la guitare:

e|---------1---------4---------1-----------------------------|
B|---------1---------1---------4-----------------------------|
G|---------1---------1---------1-----------------------------|
D|---------1---------1---------1-----------------------------|
A|---------3---------3---------3-----------------------------|
E|---------1---------1---------1-----------------------------|

Retrouvez tous les accords de guitare

Accord A / LaAccord B / SIAccord C / DOAccord D / RéAccord E / MiAccord F / FaAccord G / Sol

Vous aimerez aussi: