Home La boîte à outils Les Accords guitare E / Mi

Les Accords guitare E / Mi

30 mars 2015

Comment jouer les accords de Mi ou Accord E à la guitare?

Accord de Mi E guitare

Comment sont notés les accords de Mi ou E sur une tablature

Accord E majeur / Mi majeur

Voici deux possibilités de jouer un accord E majeur / Accord Mi Majeur à la guitare:

e|---------0---------7---------------------------------------|
B|---------0---------9---------------------------------------|
G|---------1---------9---------------------------------------|
D|---------2---------9---------------------------------------|
A|---------2---------7---------------------------------------|
E|---------0---------X---------------------------------------|

Accord E mineur / Mi mineur

Voici deux possibilités de jouer un accord Em / Accord Mi Mineur à la guitare:

e|---------0---------7---------------------------------------|
B|---------0---------8---------------------------------------|
G|---------0---------9---------------------------------------|
D|---------2---------9---------------------------------------|
A|---------2---------7---------------------------------------|
E|---------0---------X---------------------------------------|

Accord E5 / Accord cinquième de Mi

Voici deux possibilités de jouer un accord E5 / Accord cinquième de Mi à la guitare:

e|---------X---------X---------------------------------------|
B|---------X---------X---------------------------------------|
G|---------X---------9---------------------------------------|
D|---------2---------9---------------------------------------|
A|---------2---------7---------------------------------------|
E|---------0---------X---------------------------------------|

Accord E7 / Accord septième de Mi

Voici cinq possibilités de jouer un accord E7 / Accord majeur septième de Mi à la guitare:

e|---------0---------0---------7--------10--------10---------|
B|---------0---------3---------9---------9--------15---------|
G|---------1---------1---------7---------7--------13---------|
D|---------0---------2---------9---------9--------12---------|
A|---------2---------2---------7---------7--------14---------|
E|---------0---------0---------X---------X--------12---------|

Accord Em7 / Accord mineur septième de Mi

Voici cinq possibilités de jouer un accord Em7 / Accord mineur septième de Mi à la guitare:

e|---------0---------3---------0--------10--------13---------|
B|---------0---------0---------3--------13--------10---------|
G|---------0---------0---------0--------10--------10---------|
D|---------0---------0---------0--------10--------10---------|
A|---------2---------2---------2--------12--------12---------|
E|---------0---------0---------0--------10--------10---------|

Retrouvez tous les accords de guitare

Accord A / LaAccord B / SIAccord C / DOAccord D / RéAccord E / MiAccord F / FaAccord G / Sol

Vous aimerez aussi: