Home La boîte à outils Les Accords guitare D / Ré

Les Accords guitare D / Ré

30 mars 2015

Comment jouer les accords de Ré ou Accord D à la guitare?

accord D ré guitare

Comment sont notés les accords de Ré ou D sur une tablature

Accord D majeur / Ré majeur

Voici Trois possibilités de jouer un accord D majeur / Accord Ré Majeur à la guitare:

e|---------2---------5--------10-----------------------------|
B|---------1---------7--------10-----------------------------|
G|---------2---------7--------10-----------------------------|
D|---------0---------7--------12-----------------------------|
A|---------X---------5--------12-----------------------------|
E|---------X---------X--------10-----------------------------|

Accord D mineur / Ré mineur

Voici trois possibilités de jouer un accord Dm / Accord Ré Mineur à la guitare:

e|---------1---------5--------10-----------------------------|
B|---------3---------6--------10-----------------------------|
G|---------2---------7--------10-----------------------------|
D|---------0---------7--------12-----------------------------|
A|---------X---------5--------12-----------------------------|
E|---------X---------X--------10-----------------------------|

Accord D5 / Accord cinquième de Ré

Voici une possibilité de jouer un accord D5 / Accord cinquième de Ré à la guitare:

e|-------------------X---------------------------------------|
B|-------------------X---------------------------------------|
G|-------------------7---------------------------------------|
D|-------------------7---------------------------------------|
A|-------------------5---------------------------------------|
E|-------------------X---------------------------------------|

Accord D7 / Accord septième de Ré

Voici cinq possibilités de jouer un accord D7 / Accord majeur septième de Ré à la guitare:

e|---------2--------5---------8--------10--------10----------|
B|---------1--------7---------7--------10--------13----------|
G|---------2--------5---------5--------11--------11----------|
D|---------0--------7---------7--------10--------10----------|
A|---------x--------5---------5--------12--------12----------|
E|---------X--------X---------X--------10--------10----------|

Accord Dm7 / Accord mineur septième de Ré

Voici cinq possibilités de jouer un accord Dm7 / Accord mineur septième de Ré à la guitare:

e|---------5---------8--------10--------10-------13----------|
B|---------6---------6--------10--------13-------10----------|
G|---------5---------5--------10--------10-------10----------|
D|---------7---------7--------10--------10-------10----------|
A|---------5---------5--------12--------12-------12----------|
E|---------X---------X--------10--------10-------10----------|

Retrouvez tous les accords de guitare

Accord A / LaAccord B / SIAccord C / DOAccord D / RéAccord E / MiAccord F / FaAccord G / Sol

Vous aimerez aussi: