Home La boîte à outils Les Accords guitare C / DO

Les Accords guitare C / DO

30 mars 2015

Comment jouer les accords de Do ou Accord C à la guitare?

Accord C DO guitareRetirer l’image mise en avant

Comment sont notés les accords de DO ou C sur une tablature

Accord C majeur / Do majeur

Voici trois possibilités de jouer un accord C majeur / Accord Do Majeur à la guitare:

e|---------0---------3---------8-----------------------------|
B|---------1---------5---------8-----------------------------|
G|---------2---------5---------9-----------------------------|
D|---------0---------5--------10-----------------------------|
A|---------3---------3--------10-----------------------------|
E|---------X---------X---------8-----------------------------|

Accord C mineur / Do mineur

Voici deux possibilités de jouer un accord Cm / Accord Do Mineur à la guitare:

e|---------3-------------------8-----------------------------|
B|---------4-------------------8-----------------------------|
G|---------5-------------------8-----------------------------|
D|---------5------------------10-----------------------------|
A|---------3------------------10-----------------------------|
E|---------X-------------------8-----------------------------|

Accord C5 / Accord cinquième de Do

Voici deux possibilités de jouer un accord C5 / Accord cinquième de Do à la guitare:

e|---------X-------------------X-----------------------------|
B|---------X-------------------X-----------------------------|
G|---------5-------------------X-----------------------------|
D|---------5------------------10-----------------------------|
A|---------3------------------10-----------------------------|
E|---------X-------------------8-----------------------------|

Accord C7 / Accord septième de Do

Voici quatre possibilités de jouer un accord C7 / Accord majeur septième de Do à la guitare:

e|---------2--------6---------8---------8--------------------|
B|---------1--------5---------8---------11-------------------|
G|---------3--------3---------9---------9--------------------|
D|---------2--------5---------8---------9--------------------|
A|---------3--------3--------10--------10--------------------|
E|---------X--------X---------8---------8--------------------|

Accord Cm7 / Accord mineur septième de Do

Voici cinq possibilités de jouer un accord Cm7 / Accord mineur septième de Do à la guitare:

e|---------3---------6---------8---------8--------11---------|
B|---------4---------4---------8--------11---------8---------|
G|---------3---------3---------8---------8---------8---------|
D|---------5---------5---------8---------8---------8---------|
A|---------3---------3--------10--------10--------10---------|
E|---------X---------X---------8---------8---------8---------|

Retrouvez tous les accords de guitare

Accord A / LaAccord B / SIAccord C / DOAccord D / RéAccord E / MiAccord F / FaAccord G / Sol

Vous aimerez aussi: