Home La boîte à outils Les Accords guitare B / Si

Les Accords guitare B / Si

27 mars 2015

Comment jouer les accords de Si ou Accord B à la guitare?

Comment jouer un accord de si à la guitare

Comment sont notés les accords de SI ou B sur une tablature

Accord B majeur / SI majeur

Voici deux possibilités de jouer un accord B majeur / Accord Si Majeur à la guitare:

e|---------2-------------------7-----------------------------|
B|---------4-------------------7-----------------------------|
G|---------4-------------------8-----------------------------|
D|---------4-------------------9-----------------------------|
A|---------2-------------------9-----------------------------|
E|---------X-------------------7-----------------------------|

Accord B mineur / Si mineur

Voici deux possibilités de jouer un accord Bm / Accord Si Mineur à la guitare:

e|---------0-------------------7-----------------------------|
B|---------3-------------------7-----------------------------|
G|---------4-------------------7-----------------------------|
D|---------4-------------------9-----------------------------|
A|---------2-------------------9-----------------------------|
E|---------X-------------------7-----------------------------|

Accord B5 / Accord cinquième de Si

Voici deux possibilités de jouer un accord B5 / Accord cinquième de Si à la guitare:

e|---------X-------------------X-----------------------------|
B|---------X-------------------X-----------------------------|
G|---------4-------------------X-----------------------------|
D|---------4-------------------9-----------------------------|
A|---------2-------------------9-----------------------------|
E|---------X-------------------7-----------------------------|

Accord B7 / Accord septième de Si

Voici trois possibilités de jouer un accord B7 / Accord majeur septième de Si à la guitare:

e|---------2---------2---------7----------------------------|
B|---------4---------0---------10---------------------------|
G|---------2---------2---------8----------------------------|
D|---------4---------4---------7----------------------------|
A|---------2---------2---------9----------------------------|
E|---------X---------X---------7----------------------------|

Accord Bm7 / Accord mineur septième de Si

Voici cinq possibilités de jouer un accord Bm7 / Accord mineur septième de Si à la guitare:

e|---------2---------5---------7---------7---------10--------|
B|---------3---------3---------7---------10--------7---------|
G|---------2---------2---------7---------7---------7---------|
D|---------4---------4---------7---------7---------7---------|
A|---------2---------2---------9---------9---------9---------|
E|---------X---------X---------7---------7---------7---------|

Retrouvez tous les accords de guitare

Accord A / LaAccord B / SIAccord C / DOAccord D / RéAccord E / MiAccord F / FaAccord G / Sol

Vous aimerez aussi: