Home La boîte à outils Les Accords guitare A / La

Les Accords guitare A / La

27 mars 2015

Comment jouer les accords de La ou Accord A à la guitare?

Accord de La Accord A Guitare

Comment sont notés les accords de La ou A sur une tablature

Accord A majeur / LA majeur

Voici deux possibilités de jouer un accord A majeur / Accord La Majeur à la guitare:

e|---------0-------------------5-----------------------------|
B|---------2-------------------5-----------------------------|
G|---------2-------------------6-----------------------------|
D|---------2-------------------7-----------------------------|
A|---------0-------------------7-----------------------------|
E|---------X-------------------5-----------------------------|

Accord A mineur / LA mineur

Voici deux possibilités de jouer un accord Am / Accord La Mineur à la guitare:

e|---------0-------------------5-----------------------------|
B|---------1-------------------5-----------------------------|
G|---------2-------------------5-----------------------------|
D|---------2-------------------7-----------------------------|
A|---------0-------------------7-----------------------------|
E|---------X-------------------5-----------------------------|

Accord A5 / Accord cinquième de LA

Voici deux possibilités de jouer un accord A5 / Accord cinquième de LA à la guitare:

e|---------X-------------------X-----------------------------|
B|---------X-------------------X-----------------------------|
G|---------5-------------------X-----------------------------|
D|---------5-------------------7-----------------------------|
A|---------0-------------------7-----------------------------|
E|---------X-------------------5-----------------------------|

Accord A7 / Accord septième de LA

Voici quatre possibilités de jouer un accord A7 / Accord majeur septième de LA à la guitare:

e|---------0---------3---------5---------5-------------------|
B|---------2---------2---------5---------8-------------------|
G|---------0---------0---------7---------7-------------------|
D|---------2---------2---------5---------5-------------------|
A|---------0---------0---------7---------7-------------------|
E|---------X---------X---------5---------5-------------------|

Accord Am7 / Accord mineur septième de LA

Voici cinq possibilités de jouer un accord Am7 / Accord mineur septième de LA à la guitare:

e|---------0---------3---------5---------5---------8---------|
B|---------1---------1---------5---------8---------5---------|
G|---------0---------2---------5---------5---------5---------|
D|---------2---------2---------5---------5---------5---------|
A|---------0---------0---------7---------7---------7---------|
E|---------X---------X---------5---------5---------5---------|

Retrouvez tous les accords de guitare

Accord A / LaAccord B / SIAccord C / DOAccord D / RéAccord E / MiAccord F / FaAccord G / Sol

Vous aimerez aussi: